ISO-10303-21;
HEADER;
/* Generated by software containing ST-Developer
 * from STEP Tools, Inc. (www.steptools.com) 
 */

FILE_DESCRIPTION(
/* description */ (''),
/* implementation_level */ '2;1');

FILE_NAME(
/* name */ '',
/* time_stamp */ '2025-07-24T08:29:20+07:00',
/* author */ ('zeta-86'),
/* organization */ (''),
/* preprocessor_version */ 'ST-DEVELOPER v19.2',
/* originating_system */ 'Autodesk Inventor 2024',
/* authorisation */ '');

FILE_SCHEMA (('AUTOMOTIVE_DESIGN { 1 0 10303 214 3 1 1 }'));
ENDSEC;

DATA;
#10=MECHANICAL_DESIGN_GEOMETRIC_PRESENTATION_REPRESENTATION('',(#13),#468);
#11=SHAPE_REPRESENTATION_RELATIONSHIP('SRR','None',#475,#12);
#12=ADVANCED_BREP_SHAPE_REPRESENTATION('',(#14),#467);
#13=STYLED_ITEM('',(#484),#14);
#14=MANIFOLD_SOLID_BREP('\X2\04220432043504400434043E0435\X0\ \X2\04420435043B043E\X0\2',
#221);
#15=TOROIDAL_SURFACE('',#273,6.25,0.75);
#16=(
BOUNDED_CURVE()
B_SPLINE_CURVE(2,(#460,#461,#462),.UNSPECIFIED.,.F.,.F.)
B_SPLINE_CURVE_WITH_KNOTS((3,3),(1.14755912070159,1.21059292596033),
 .UNSPECIFIED.)
CURVE()
GEOMETRIC_REPRESENTATION_ITEM()
RATIONAL_B_SPLINE_CURVE((1.,0.997013666565301,0.995017661192156))
REPRESENTATION_ITEM('')
);
#17=(
BOUNDED_SURFACE()
B_SPLINE_SURFACE(2,2,((#433,#434,#435,#436,#437,#438,#439,#440,#441),(#442,
#443,#444,#445,#446,#447,#448,#449,#450),(#451,#452,#453,#454,#455,#456,
#457,#458,#459)),.UNSPECIFIED.,.F.,.T.,.F.)
B_SPLINE_SURFACE_WITH_KNOTS((3,3),(3,2,2,2,3),(1.14755912070159,1.52771589393327),
(-3.14159265358979,-1.5707963267949,0.,1.5707963267949,3.14159265358979),
 .UNSPECIFIED.)
GEOMETRIC_REPRESENTATION_ITEM()
RATIONAL_B_SPLINE_SURFACE(((1.,0.707106781186548,1.,0.707106781186548,1.,
0.707106781186548,1.,0.707106781186548,1.),(0.981989428090707,0.694371383656438,
0.981989428090707,0.694371383656438,0.981989428090707,0.694371383656438,
0.981989428090707,0.694371383656438,0.981989428090707),(1.,0.707106781186548,
1.,0.707106781186548,1.,0.707106781186548,1.,0.707106781186548,1.)))
REPRESENTATION_ITEM('')
SURFACE()
);
#18=CONICAL_SURFACE('',#259,4.4,0.785398163397444);
#19=CONICAL_SURFACE('',#263,5.875,0.785398163397448);
#20=CONICAL_SURFACE('',#269,5.875,0.785398163397447);
#21=B_SPLINE_CURVE_WITH_KNOTS('',3,(#367,#368,#369,#370,#371,#372,#373,
#374,#375,#376),.UNSPECIFIED.,.F.,.F.,(4,2,2,2,4),(-5.60687434986315,-5.3738447578853,
-5.033905532432,-4.69396630697869,-4.46093671828716),.UNSPECIFIED.);
#22=B_SPLINE_CURVE_WITH_KNOTS('',3,(#381,#382,#383,#384,#385,#386,#387,
#388,#389,#390),.UNSPECIFIED.,.F.,.F.,(4,2,2,2,4),(4.46093671828934,4.69396630728632,
5.03390553243239,5.37384475757846,5.60687434986176),.UNSPECIFIED.);
#23=B_SPLINE_CURVE_WITH_KNOTS('',3,(#394,#395,#396,#397),.UNSPECIFIED.,
 .F.,.F.,(4,4),(2.99841452722483,3.07312202823304),.UNSPECIFIED.);
#24=B_SPLINE_CURVE_WITH_KNOTS('',3,(#398,#399,#400,#401),.UNSPECIFIED.,
 .F.,.F.,(4,4),(0.94942103612145,1.09879549331579),.UNSPECIFIED.);
#25=B_SPLINE_CURVE_WITH_KNOTS('',3,(#402,#403,#404,#405),.UNSPECIFIED.,
 .F.,.F.,(4,4),(3.07312202823304,3.14781620515028),.UNSPECIFIED.);
#26=LINE('',#360,#32);
#27=LINE('',#408,#33);
#28=LINE('',#417,#34);
#29=LINE('',#424,#35);
#30=LINE('',#426,#36);
#31=LINE('',#432,#37);
#32=VECTOR('',#293,5.5);
#33=VECTOR('',#310,4.4);
#34=VECTOR('',#321,5.875);
#35=VECTOR('',#330,6.25);
#36=VECTOR('',#333,5.875);
#37=VECTOR('',#340,7.);
#38=CYLINDRICAL_SURFACE('',#249,5.5);
#39=CYLINDRICAL_SURFACE('',#258,44.5397266320452);
#40=CYLINDRICAL_SURFACE('',#266,6.25);
#41=CYLINDRICAL_SURFACE('',#270,7.);
#42=FACE_BOUND('',#59,.T.);
#43=FACE_BOUND('',#67,.T.);
#44=FACE_OUTER_BOUND('',#58,.T.);
#45=FACE_OUTER_BOUND('',#60,.T.);
#46=FACE_OUTER_BOUND('',#61,.T.);
#47=FACE_OUTER_BOUND('',#62,.T.);
#48=FACE_OUTER_BOUND('',#63,.T.);
#49=FACE_OUTER_BOUND('',#64,.T.);
#50=FACE_OUTER_BOUND('',#65,.T.);
#51=FACE_OUTER_BOUND('',#66,.T.);
#52=FACE_OUTER_BOUND('',#68,.T.);
#53=FACE_OUTER_BOUND('',#69,.T.);
#54=FACE_OUTER_BOUND('',#70,.T.);
#55=FACE_OUTER_BOUND('',#71,.T.);
#56=FACE_OUTER_BOUND('',#72,.T.);
#57=FACE_OUTER_BOUND('',#73,.T.);
#58=EDGE_LOOP('',(#142));
#59=EDGE_LOOP('',(#143));
#60=EDGE_LOOP('',(#144));
#61=EDGE_LOOP('',(#145,#146,#147,#148,#149,#150));
#62=EDGE_LOOP('',(#151,#152));
#63=EDGE_LOOP('',(#153,#154));
#64=EDGE_LOOP('',(#155,#156,#157,#158,#159));
#65=EDGE_LOOP('',(#160,#161,#162,#163));
#66=EDGE_LOOP('',(#164));
#67=EDGE_LOOP('',(#165));
#68=EDGE_LOOP('',(#166,#167,#168,#169,#170));
#69=EDGE_LOOP('',(#171,#172,#173,#174,#175,#176));
#70=EDGE_LOOP('',(#177,#178,#179,#180,#181,#182));
#71=EDGE_LOOP('',(#183,#184,#185,#186,#187));
#72=EDGE_LOOP('',(#188,#189,#190,#191,#192,#193,#194,#195,#196));
#73=EDGE_LOOP('',(#197,#198,#199,#200,#201));
#74=CIRCLE('',#245,7.);
#75=CIRCLE('',#246,6.74815677429883);
#76=CIRCLE('',#248,4.25);
#77=CIRCLE('',#250,5.5);
#78=CIRCLE('',#251,5.5);
#79=CIRCLE('',#252,5.5);
#80=CIRCLE('',#253,5.5);
#81=CIRCLE('',#255,44.5397266320452);
#82=CIRCLE('',#257,44.5397266320452);
#83=CIRCLE('',#260,4.55);
#84=CIRCLE('',#262,5.5);
#85=CIRCLE('',#264,6.25);
#86=CIRCLE('',#265,6.25);
#87=CIRCLE('',#267,6.25);
#88=CIRCLE('',#268,6.25);
#89=CIRCLE('',#271,7.);
#90=CIRCLE('',#272,7.);
#91=CIRCLE('',#274,0.75);
#92=VERTEX_POINT('',#347);
#93=VERTEX_POINT('',#349);
#94=VERTEX_POINT('',#352);
#95=VERTEX_POINT('',#355);
#96=VERTEX_POINT('',#356);
#97=VERTEX_POINT('',#359);
#98=VERTEX_POINT('',#361);
#99=VERTEX_POINT('',#365);
#100=VERTEX_POINT('',#366);
#101=VERTEX_POINT('',#379);
#102=VERTEX_POINT('',#380);
#103=VERTEX_POINT('',#393);
#104=VERTEX_POINT('',#407);
#105=VERTEX_POINT('',#411);
#106=VERTEX_POINT('',#414);
#107=VERTEX_POINT('',#415);
#108=VERTEX_POINT('',#420);
#109=VERTEX_POINT('',#421);
#110=VERTEX_POINT('',#428);
#111=VERTEX_POINT('',#429);
#112=EDGE_CURVE('',#92,#92,#74,.T.);
#113=EDGE_CURVE('',#93,#93,#75,.T.);
#114=EDGE_CURVE('',#94,#94,#76,.T.);
#115=EDGE_CURVE('',#95,#96,#77,.T.);
#116=EDGE_CURVE('',#96,#95,#78,.T.);
#117=EDGE_CURVE('',#96,#97,#26,.T.);
#118=EDGE_CURVE('',#97,#98,#79,.T.);
#119=EDGE_CURVE('',#98,#97,#80,.T.);
#120=EDGE_CURVE('',#99,#100,#21,.T.);
#121=EDGE_CURVE('',#100,#99,#81,.T.);
#122=EDGE_CURVE('',#101,#102,#22,.T.);
#123=EDGE_CURVE('',#102,#101,#82,.T.);
#124=EDGE_CURVE('',#102,#103,#23,.T.);
#125=EDGE_CURVE('',#100,#101,#24,.T.);
#126=EDGE_CURVE('',#103,#99,#25,.T.);
#127=EDGE_CURVE('',#94,#104,#27,.T.);
#128=EDGE_CURVE('',#104,#104,#83,.T.);
#129=EDGE_CURVE('',#105,#105,#84,.T.);
#130=EDGE_CURVE('',#106,#107,#85,.T.);
#131=EDGE_CURVE('',#107,#105,#28,.T.);
#132=EDGE_CURVE('',#107,#106,#86,.T.);
#133=EDGE_CURVE('',#108,#109,#87,.T.);
#134=EDGE_CURVE('',#109,#108,#88,.T.);
#135=EDGE_CURVE('',#109,#106,#29,.T.);
#136=EDGE_CURVE('',#108,#98,#30,.T.);
#137=EDGE_CURVE('',#110,#111,#89,.T.);
#138=EDGE_CURVE('',#111,#110,#90,.T.);
#139=EDGE_CURVE('',#111,#92,#31,.T.);
#140=EDGE_CURVE('',#110,#103,#16,.T.);
#141=EDGE_CURVE('',#93,#95,#91,.T.);
#142=ORIENTED_EDGE('',*,*,#112,.F.);
#143=ORIENTED_EDGE('',*,*,#113,.T.);
#144=ORIENTED_EDGE('',*,*,#114,.F.);
#145=ORIENTED_EDGE('',*,*,#115,.F.);
#146=ORIENTED_EDGE('',*,*,#116,.F.);
#147=ORIENTED_EDGE('',*,*,#117,.T.);
#148=ORIENTED_EDGE('',*,*,#118,.T.);
#149=ORIENTED_EDGE('',*,*,#119,.T.);
#150=ORIENTED_EDGE('',*,*,#117,.F.);
#151=ORIENTED_EDGE('',*,*,#120,.F.);
#152=ORIENTED_EDGE('',*,*,#121,.F.);
#153=ORIENTED_EDGE('',*,*,#122,.F.);
#154=ORIENTED_EDGE('',*,*,#123,.F.);
#155=ORIENTED_EDGE('',*,*,#124,.F.);
#156=ORIENTED_EDGE('',*,*,#123,.T.);
#157=ORIENTED_EDGE('',*,*,#125,.F.);
#158=ORIENTED_EDGE('',*,*,#121,.T.);
#159=ORIENTED_EDGE('',*,*,#126,.F.);
#160=ORIENTED_EDGE('',*,*,#114,.T.);
#161=ORIENTED_EDGE('',*,*,#127,.T.);
#162=ORIENTED_EDGE('',*,*,#128,.T.);
#163=ORIENTED_EDGE('',*,*,#127,.F.);
#164=ORIENTED_EDGE('',*,*,#129,.F.);
#165=ORIENTED_EDGE('',*,*,#128,.F.);
#166=ORIENTED_EDGE('',*,*,#130,.T.);
#167=ORIENTED_EDGE('',*,*,#131,.T.);
#168=ORIENTED_EDGE('',*,*,#129,.T.);
#169=ORIENTED_EDGE('',*,*,#131,.F.);
#170=ORIENTED_EDGE('',*,*,#132,.T.);
#171=ORIENTED_EDGE('',*,*,#133,.F.);
#172=ORIENTED_EDGE('',*,*,#134,.F.);
#173=ORIENTED_EDGE('',*,*,#135,.T.);
#174=ORIENTED_EDGE('',*,*,#132,.F.);
#175=ORIENTED_EDGE('',*,*,#130,.F.);
#176=ORIENTED_EDGE('',*,*,#135,.F.);
#177=ORIENTED_EDGE('',*,*,#133,.T.);
#178=ORIENTED_EDGE('',*,*,#134,.T.);
#179=ORIENTED_EDGE('',*,*,#136,.T.);
#180=ORIENTED_EDGE('',*,*,#118,.F.);
#181=ORIENTED_EDGE('',*,*,#119,.F.);
#182=ORIENTED_EDGE('',*,*,#136,.F.);
#183=ORIENTED_EDGE('',*,*,#137,.F.);
#184=ORIENTED_EDGE('',*,*,#138,.F.);
#185=ORIENTED_EDGE('',*,*,#139,.T.);
#186=ORIENTED_EDGE('',*,*,#112,.T.);
#187=ORIENTED_EDGE('',*,*,#139,.F.);
#188=ORIENTED_EDGE('',*,*,#137,.T.);
#189=ORIENTED_EDGE('',*,*,#138,.T.);
#190=ORIENTED_EDGE('',*,*,#140,.T.);
#191=ORIENTED_EDGE('',*,*,#126,.T.);
#192=ORIENTED_EDGE('',*,*,#120,.T.);
#193=ORIENTED_EDGE('',*,*,#125,.T.);
#194=ORIENTED_EDGE('',*,*,#122,.T.);
#195=ORIENTED_EDGE('',*,*,#124,.T.);
#196=ORIENTED_EDGE('',*,*,#140,.F.);
#197=ORIENTED_EDGE('',*,*,#113,.F.);
#198=ORIENTED_EDGE('',*,*,#141,.T.);
#199=ORIENTED_EDGE('',*,*,#115,.T.);
#200=ORIENTED_EDGE('',*,*,#116,.T.);
#201=ORIENTED_EDGE('',*,*,#141,.F.);
#202=PLANE('',#244);
#203=PLANE('',#247);
#204=PLANE('',#254);
#205=PLANE('',#256);
#206=PLANE('',#261);
#207=ADVANCED_FACE('',(#44,#42),#202,.F.);
#208=ADVANCED_FACE('',(#45),#203,.F.);
#209=ADVANCED_FACE('',(#46),#38,.T.);
#210=ADVANCED_FACE('',(#47),#204,.F.);
#211=ADVANCED_FACE('',(#48),#205,.T.);
#212=ADVANCED_FACE('',(#49),#39,.F.);
#213=ADVANCED_FACE('',(#50),#18,.F.);
#214=ADVANCED_FACE('',(#51,#43),#206,.T.);
#215=ADVANCED_FACE('',(#52),#19,.T.);
#216=ADVANCED_FACE('',(#53),#40,.T.);
#217=ADVANCED_FACE('',(#54),#20,.T.);
#218=ADVANCED_FACE('',(#55),#41,.T.);
#219=ADVANCED_FACE('',(#56),#17,.F.);
#220=ADVANCED_FACE('',(#57),#15,.T.);
#221=CLOSED_SHELL('',(#207,#208,#209,#210,#211,#212,#213,#214,#215,#216,
#217,#218,#219,#220));
#222=DERIVED_UNIT_ELEMENT(#225,1.);
#223=DERIVED_UNIT_ELEMENT(#470,-3.);
#224=DIMENSIONAL_EXPONENTS(0.,1.,0.,0.,0.,0.,0.);
#225=(
CONVERSION_BASED_UNIT('gram',#227)
MASS_UNIT()
NAMED_UNIT(#224)
);
#226=(
MASS_UNIT()
NAMED_UNIT(*)
SI_UNIT(.KILO.,.GRAM.)
);
#227=MASS_MEASURE_WITH_UNIT(MASS_MEASURE(0.001),#226);
#228=DERIVED_UNIT((#222,#223));
#229=MEASURE_REPRESENTATION_ITEM('density measure',
POSITIVE_RATIO_MEASURE(1.),#228);
#230=PROPERTY_DEFINITION_REPRESENTATION(#235,#232);
#231=PROPERTY_DEFINITION_REPRESENTATION(#236,#233);
#232=REPRESENTATION('material name',(#234),#467);
#233=REPRESENTATION('density',(#229),#467);
#234=DESCRIPTIVE_REPRESENTATION_ITEM('\X2\04220438043F043E0432044B0435\X0\',
'\X2\04220438043F043E0432044B0435\X0\');
#235=PROPERTY_DEFINITION('material property','material name',#477);
#236=PROPERTY_DEFINITION('material property','density of part',#477);
#237=DATE_TIME_ROLE('creation_date');
#238=APPLIED_DATE_AND_TIME_ASSIGNMENT(#239,#237,(#477));
#239=DATE_AND_TIME(#240,#241);
#240=CALENDAR_DATE(2023,9,10);
#241=LOCAL_TIME(11,31,44.,#242);
#242=COORDINATED_UNIVERSAL_TIME_OFFSET(0,0,.BEHIND.);
#243=AXIS2_PLACEMENT_3D('',#345,#275,#276);
#244=AXIS2_PLACEMENT_3D('',#346,#277,#278);
#245=AXIS2_PLACEMENT_3D('',#348,#279,#280);
#246=AXIS2_PLACEMENT_3D('',#350,#281,#282);
#247=AXIS2_PLACEMENT_3D('',#351,#283,#284);
#248=AXIS2_PLACEMENT_3D('',#353,#285,#286);
#249=AXIS2_PLACEMENT_3D('',#354,#287,#288);
#250=AXIS2_PLACEMENT_3D('',#357,#289,#290);
#251=AXIS2_PLACEMENT_3D('',#358,#291,#292);
#252=AXIS2_PLACEMENT_3D('',#362,#294,#295);
#253=AXIS2_PLACEMENT_3D('',#363,#296,#297);
#254=AXIS2_PLACEMENT_3D('',#364,#298,#299);
#255=AXIS2_PLACEMENT_3D('',#377,#300,#301);
#256=AXIS2_PLACEMENT_3D('',#378,#302,#303);
#257=AXIS2_PLACEMENT_3D('',#391,#304,#305);
#258=AXIS2_PLACEMENT_3D('',#392,#306,#307);
#259=AXIS2_PLACEMENT_3D('',#406,#308,#309);
#260=AXIS2_PLACEMENT_3D('',#409,#311,#312);
#261=AXIS2_PLACEMENT_3D('',#410,#313,#314);
#262=AXIS2_PLACEMENT_3D('',#412,#315,#316);
#263=AXIS2_PLACEMENT_3D('',#413,#317,#318);
#264=AXIS2_PLACEMENT_3D('',#416,#319,#320);
#265=AXIS2_PLACEMENT_3D('',#418,#322,#323);
#266=AXIS2_PLACEMENT_3D('',#419,#324,#325);
#267=AXIS2_PLACEMENT_3D('',#422,#326,#327);
#268=AXIS2_PLACEMENT_3D('',#423,#328,#329);
#269=AXIS2_PLACEMENT_3D('',#425,#331,#332);
#270=AXIS2_PLACEMENT_3D('',#427,#334,#335);
#271=AXIS2_PLACEMENT_3D('',#430,#336,#337);
#272=AXIS2_PLACEMENT_3D('',#431,#338,#339);
#273=AXIS2_PLACEMENT_3D('',#463,#341,#342);
#274=AXIS2_PLACEMENT_3D('',#464,#343,#344);
#275=DIRECTION('axis',(0.,0.,1.));
#276=DIRECTION('refdir',(1.,0.,0.));
#277=DIRECTION('center_axis',(0.,1.,0.));
#278=DIRECTION('ref_axis',(0.,0.,1.));
#279=DIRECTION('center_axis',(0.,1.,0.));
#280=DIRECTION('ref_axis',(1.,0.,0.));
#281=DIRECTION('center_axis',(-3.06161699786838E-17,1.,-3.06161701370715E-17));
#282=DIRECTION('ref_axis',(0.,3.06161701370715E-17,1.));
#283=DIRECTION('center_axis',(0.,1.,0.));
#284=DIRECTION('ref_axis',(0.,0.,1.));
#285=DIRECTION('center_axis',(0.,1.,0.));
#286=DIRECTION('ref_axis',(1.,0.,0.));
#287=DIRECTION('center_axis',(0.,1.,0.));
#288=DIRECTION('ref_axis',(-1.,0.,0.));
#289=DIRECTION('center_axis',(0.,1.,0.));
#290=DIRECTION('ref_axis',(-1.,0.,0.));
#291=DIRECTION('center_axis',(0.,1.,0.));
#292=DIRECTION('ref_axis',(-1.,0.,0.));
#293=DIRECTION('',(0.,-1.,0.));
#294=DIRECTION('center_axis',(0.,1.,0.));
#295=DIRECTION('ref_axis',(1.,0.,0.));
#296=DIRECTION('center_axis',(0.,1.,0.));
#297=DIRECTION('ref_axis',(1.,0.,0.));
#298=DIRECTION('center_axis',(1.,0.,0.));
#299=DIRECTION('ref_axis',(0.,0.,-1.));
#300=DIRECTION('center_axis',(1.,0.,0.));
#301=DIRECTION('ref_axis',(0.,1.,0.));
#302=DIRECTION('center_axis',(1.,0.,0.));
#303=DIRECTION('ref_axis',(0.,0.,-1.));
#304=DIRECTION('center_axis',(-1.,0.,0.));
#305=DIRECTION('ref_axis',(0.,1.,0.));
#306=DIRECTION('center_axis',(1.,0.,0.));
#307=DIRECTION('ref_axis',(0.,-1.,-1.22464679914735E-16));
#308=DIRECTION('center_axis',(0.,-1.,0.));
#309=DIRECTION('ref_axis',(1.,0.,0.));
#310=DIRECTION('',(-0.707106781186544,-0.707106781186551,-8.6595605623549E-17));
#311=DIRECTION('center_axis',(0.,-1.,0.));
#312=DIRECTION('ref_axis',(1.,0.,0.));
#313=DIRECTION('center_axis',(0.,-1.,0.));
#314=DIRECTION('ref_axis',(0.,0.,-1.));
#315=DIRECTION('center_axis',(0.,1.,0.));
#316=DIRECTION('ref_axis',(1.,0.,0.));
#317=DIRECTION('center_axis',(0.,1.,0.));
#318=DIRECTION('ref_axis',(1.,0.,0.));
#319=DIRECTION('center_axis',(0.,-1.,0.));
#320=DIRECTION('ref_axis',(1.,0.,0.));
#321=DIRECTION('',(0.707106781186547,-0.707106781186548,-8.65956056235493E-17));
#322=DIRECTION('center_axis',(0.,-1.,0.));
#323=DIRECTION('ref_axis',(1.,0.,0.));
#324=DIRECTION('center_axis',(0.,1.,0.));
#325=DIRECTION('ref_axis',(-1.,0.,0.));
#326=DIRECTION('center_axis',(0.,1.,0.));
#327=DIRECTION('ref_axis',(1.,0.,0.));
#328=DIRECTION('center_axis',(0.,1.,0.));
#329=DIRECTION('ref_axis',(1.,0.,0.));
#330=DIRECTION('',(0.,-1.,0.));
#331=DIRECTION('center_axis',(0.,-1.,0.));
#332=DIRECTION('ref_axis',(1.,0.,0.));
#333=DIRECTION('',(0.707106781186547,0.707106781186549,8.65956056235492E-17));
#334=DIRECTION('center_axis',(0.,1.,0.));
#335=DIRECTION('ref_axis',(-1.,0.,0.));
#336=DIRECTION('center_axis',(0.,1.,0.));
#337=DIRECTION('ref_axis',(1.,0.,0.));
#338=DIRECTION('center_axis',(0.,1.,0.));
#339=DIRECTION('ref_axis',(1.,0.,0.));
#340=DIRECTION('',(0.,-1.,0.));
#341=DIRECTION('center_axis',(-6.12323399573677E-17,1.,-6.12323402741429E-17));
#342=DIRECTION('ref_axis',(-0.00753003924632318,6.34413156928661E-17,0.999971648852581));
#343=DIRECTION('center_axis',(-0.999971648852581,-6.16916858756792E-17,
-0.00753003924632305));
#344=DIRECTION('ref_axis',(0.00753003924632305,-7.93016446160826E-17,-0.999971648852581));
#345=CARTESIAN_POINT('',(0.,0.,0.));
#346=CARTESIAN_POINT('Origin',(-2.53712953719021,-3.43678659245594,0.));
#347=CARTESIAN_POINT('',(4.46287046280979,-3.43678659245594,-8.57252759403147E-16));
#348=CARTESIAN_POINT('Origin',(-2.53712953719021,-3.43678659245594,0.));
#349=CARTESIAN_POINT('',(-2.48631565183938,-3.43678659245594,-6.74796545631132));
#350=CARTESIAN_POINT('Origin',(-2.53712953719019,-3.43678659245594,-1.71652669104134E-17));
#351=CARTESIAN_POINT('Origin',(-2.53712953719021,-8.13678659245593,0.));
#352=CARTESIAN_POINT('',(-6.78712953719021,-8.13678659245593,5.20474889637625E-16));
#353=CARTESIAN_POINT('Origin',(-2.53712953719021,-8.13678659245593,0.));
#354=CARTESIAN_POINT('Origin',(-2.53712953719021,-3.78678659245594,0.));
#355=CARTESIAN_POINT('',(-2.49571432133542,-3.99744676423576,-5.49984406868919));
#356=CARTESIAN_POINT('',(2.96287046280979,-3.99744676423576,-6.73555739531044E-16));
#357=CARTESIAN_POINT('Origin',(-2.53712953719019,-3.99744676423576,2.97877392633603E-25));
#358=CARTESIAN_POINT('Origin',(-2.53712953719019,-3.99744676423576,2.97877392633603E-25));
#359=CARTESIAN_POINT('',(2.96287046280979,-4.63678659245594,-6.73555739531044E-16));
#360=CARTESIAN_POINT('',(2.96287046280979,-3.78678659245594,-6.73555739531044E-16));
#361=CARTESIAN_POINT('',(-8.03712953719021,-4.63678659245594,0.));
#362=CARTESIAN_POINT('Origin',(-2.53712953719021,-4.63678659245594,0.));
#363=CARTESIAN_POINT('Origin',(-2.53712953719021,-4.63678659245594,0.));
#364=CARTESIAN_POINT('Origin',(-1.78712953719021,42.6029364590851,0.));
#365=CARTESIAN_POINT('',(-1.78712953719021,-1.5337002702772,-5.97867432443254));
#366=CARTESIAN_POINT('',(-1.78712953719021,-1.5337002702772,5.97867432443253));
#367=CARTESIAN_POINT('Ctrl Pts',(-1.78712953719021,-1.53370027027939,-5.97867432443172));
#368=CARTESIAN_POINT('Ctrl Pts',(-1.78712953719021,-1.248043968136,-5.21657917842303));
#369=CARTESIAN_POINT('Ctrl Pts',(-1.78712953719021,-1.00734590646408,-4.40292261027205));
#370=CARTESIAN_POINT('Ctrl Pts',(-1.78712953719021,-0.571626661532636,-2.36949209936582));
#371=CARTESIAN_POINT('Ctrl Pts',(-1.78712953719356,-0.452550122263098,-1.13313073429499));
#372=CARTESIAN_POINT('Ctrl Pts',(-1.78712953719356,-0.452550124551827,1.13313076872705));
#373=CARTESIAN_POINT('Ctrl Pts',(-1.78712953719021,-0.571626666318597,2.36949213355736));
#374=CARTESIAN_POINT('Ctrl Pts',(-1.78712953719021,-1.00734591285811,4.4029226319206));
#375=CARTESIAN_POINT('Ctrl Pts',(-1.78712953719021,-1.24804397183765,5.2165791883122));
#376=CARTESIAN_POINT('Ctrl Pts',(-1.78712953719021,-1.53370027026907,5.97867432443558));
#377=CARTESIAN_POINT('Origin',(-1.78712953719021,42.6029364590851,0.));
#378=CARTESIAN_POINT('Origin',(-3.28712953719021,42.6029364590851,0.));
#379=CARTESIAN_POINT('',(-3.28712953719021,-1.5337002702772,5.97867432443253));
#380=CARTESIAN_POINT('',(-3.28712953719021,-1.5337002702772,-5.97867432443254));
#381=CARTESIAN_POINT('Ctrl Pts',(-3.28712953719021,-1.53370027026861,5.97867432443575));
#382=CARTESIAN_POINT('Ctrl Pts',(-3.28712953719021,-1.24804397151093,5.21657918744159));
#383=CARTESIAN_POINT('Ctrl Pts',(-3.28712953719021,-1.00734591227236,4.40292262994362));
#384=CARTESIAN_POINT('Ctrl Pts',(-3.28712953719021,-0.571626666107791,2.36949213146809));
#385=CARTESIAN_POINT('Ctrl Pts',(-3.28712953719356,-0.452550124714068,1.13313076770293));
#386=CARTESIAN_POINT('Ctrl Pts',(-3.28712953719356,-0.45255012242534,-1.13313073327087));
#387=CARTESIAN_POINT('Ctrl Pts',(-3.28712953719021,-0.571626661321829,-2.36949209727655));
#388=CARTESIAN_POINT('Ctrl Pts',(-3.28712953719021,-1.00734590587833,-4.40292260829508));
#389=CARTESIAN_POINT('Ctrl Pts',(-3.28712953719021,-1.24804396780928,-5.21657917755242));
#390=CARTESIAN_POINT('Ctrl Pts',(-3.28712953719021,-1.53370027027892,-5.97867432443189));
#391=CARTESIAN_POINT('Origin',(-3.28712953719021,42.6029364590851,0.));
#392=CARTESIAN_POINT('Origin',(-2.53712953719021,42.6029364590851,0.));
#393=CARTESIAN_POINT('',(-2.53712954058907,-1.52901956081273,-6.01312783126381));
#394=CARTESIAN_POINT('Ctrl Pts',(-3.28712953719896,-1.53370027027778,-5.97867432442774));
#395=CARTESIAN_POINT('Ctrl Pts',(-3.03787509047057,-1.53058910032602,-6.00164205448174));
#396=CARTESIAN_POINT('Ctrl Pts',(-2.78751343356309,-1.52901956082687,-6.01312783116004));
#397=CARTESIAN_POINT('Ctrl Pts',(-2.53712954058907,-1.52901956081273,-6.01312783126381));
#398=CARTESIAN_POINT('Ctrl Pts',(-1.78712953718853,-1.53370027027471,5.9786743244504));
#399=CARTESIAN_POINT('Ctrl Pts',(-2.28576044506482,-1.52747640739895,6.02462102766477));
#400=CARTESIAN_POINT('Ctrl Pts',(-2.78865532715847,-1.52747836328625,6.0246065886298));
#401=CARTESIAN_POINT('Ctrl Pts',(-3.28712953719198,-1.53370027027457,5.97867432445143));
#402=CARTESIAN_POINT('Ctrl Pts',(-2.53712954058907,-1.52901956081273,-6.01312783126381));
#403=CARTESIAN_POINT('Ctrl Pts',(-2.28679030360972,-1.52901956079859,-6.01312783136756));
#404=CARTESIAN_POINT('Ctrl Pts',(-2.03642883611429,-1.53058854048526,-6.00164618741936));
#405=CARTESIAN_POINT('Ctrl Pts',(-1.78712953719068,-1.5337002702778,-5.97867432442755));
#406=CARTESIAN_POINT('Origin',(-2.53712953719021,-8.28678659245593,0.));
#407=CARTESIAN_POINT('',(-7.08712953719021,-8.43678659245594,-5.57214293612046E-16));
#408=CARTESIAN_POINT('',(-6.93712953719021,-8.28678659245593,-5.38844591624835E-16));
#409=CARTESIAN_POINT('Origin',(-2.53712953719021,-8.43678659245594,0.));
#410=CARTESIAN_POINT('Origin',(-8.78712953719021,-8.43678659245594,0.));
#411=CARTESIAN_POINT('',(-8.03712953719021,-8.43678659245594,6.73555739531044E-16));
#412=CARTESIAN_POINT('Origin',(-2.53712953719021,-8.43678659245594,0.));
#413=CARTESIAN_POINT('Origin',(-2.53712953719021,-8.06178659245594,0.));
#414=CARTESIAN_POINT('',(3.71287046280979,-7.68678659245594,-7.65404249467096E-16));
#415=CARTESIAN_POINT('',(-8.78712953719021,-7.68678659245594,7.65404249467096E-16));
#416=CARTESIAN_POINT('Origin',(-2.53712953719021,-7.68678659245594,0.));
#417=CARTESIAN_POINT('',(-8.41212953719021,-8.06178659245594,7.1947999449907E-16));
#418=CARTESIAN_POINT('Origin',(-2.53712953719021,-7.68678659245594,0.));
#419=CARTESIAN_POINT('Origin',(-2.53712953719021,-6.53678659245594,0.));
#420=CARTESIAN_POINT('',(-8.78712953719021,-5.38678659245594,7.65404249467096E-16));
#421=CARTESIAN_POINT('',(3.71287046280979,-5.38678659245594,-7.65404249467096E-16));
#422=CARTESIAN_POINT('Origin',(-2.53712953719021,-5.38678659245594,0.));
#423=CARTESIAN_POINT('Origin',(-2.53712953719021,-5.38678659245594,0.));
#424=CARTESIAN_POINT('',(3.71287046280979,-6.53678659245594,-7.65404249467096E-16));
#425=CARTESIAN_POINT('Origin',(-2.53712953719021,-5.01178659245594,0.));
#426=CARTESIAN_POINT('',(-8.41212953719021,-5.01178659245594,-7.1947999449907E-16));
#427=CARTESIAN_POINT('Origin',(-2.53712953719021,-2.68678659245594,0.));
#428=CARTESIAN_POINT('',(-2.53712953719021,-1.93678659245593,-7.));
#429=CARTESIAN_POINT('',(4.46287046280979,-1.93678659245594,-8.57252759403147E-16));
#430=CARTESIAN_POINT('Origin',(-2.53712953719021,-1.93678659245594,0.));
#431=CARTESIAN_POINT('Origin',(-2.53712953719021,-1.93678659245594,0.));
#432=CARTESIAN_POINT('',(4.46287046280979,-2.68678659245594,-8.57252759403147E-16));
#433=CARTESIAN_POINT('Ctrl Pts',(-2.53712954050235,-1.93678659266518,-7.00000000045626));
#434=CARTESIAN_POINT('Ctrl Pts',(-9.53712955667569,-1.9367865941539,-7.00000000045626));
#435=CARTESIAN_POINT('Ctrl Pts',(-9.53712955667569,-1.9367866012233,1.57170787273244E-8));
#436=CARTESIAN_POINT('Ctrl Pts',(-9.53712955667569,-1.93678660829269,7.00000003189042));
#437=CARTESIAN_POINT('Ctrl Pts',(-2.53712954050235,-1.93678660680397,7.00000003189042));
#438=CARTESIAN_POINT('Ctrl Pts',(4.46287047567099,-1.93678660531524,7.00000003189042));
#439=CARTESIAN_POINT('Ctrl Pts',(4.46287047567099,-1.93678659824585,1.57170787303314E-8));
#440=CARTESIAN_POINT('Ctrl Pts',(4.46287047567099,-1.93678659117645,-7.00000000045626));
#441=CARTESIAN_POINT('Ctrl Pts',(-2.53712954050235,-1.93678659266518,-7.00000000045626));
#442=CARTESIAN_POINT('Ctrl Pts',(-2.53712954078805,-0.593414840957298,-4.01778437287175));
#443=CARTESIAN_POINT('Ctrl Pts',(-6.55491393073357,-0.593414841811781,-4.01778437287175));
#444=CARTESIAN_POINT('Ctrl Pts',(-6.55491393073357,-0.593414845869395,1.70737685145938E-8));
#445=CARTESIAN_POINT('Ctrl Pts',(-6.55491393073357,-0.59341484992701,4.01778440701928));
#446=CARTESIAN_POINT('Ctrl Pts',(-2.53712954078805,-0.593414849072527,4.01778440701928));
#447=CARTESIAN_POINT('Ctrl Pts',(1.48065484915746,-0.593414848218044,4.01778440701928));
#448=CARTESIAN_POINT('Ctrl Pts',(1.48065484915746,-0.59341484416043,1.70737674060967E-8));
#449=CARTESIAN_POINT('Ctrl Pts',(1.48065484915746,-0.593414840102815,-4.01778437287175));
#450=CARTESIAN_POINT('Ctrl Pts',(-2.53712954078805,-0.593414840957298,-4.01778437287175));
#451=CARTESIAN_POINT('Ctrl Pts',(-2.53712954081801,-0.452550122574766,-0.749999979156172));
#452=CARTESIAN_POINT('Ctrl Pts',(-3.28712953719021,-0.452550122734273,-0.749999979156172));
#453=CARTESIAN_POINT('Ctrl Pts',(-3.28712953719021,-0.452550123491707,1.7216029140186E-8));
#454=CARTESIAN_POINT('Ctrl Pts',(-3.28712953719021,-0.452550124249141,0.75000001358823));
#455=CARTESIAN_POINT('Ctrl Pts',(-2.53712954081801,-0.452550124089635,0.75000001358823));
#456=CARTESIAN_POINT('Ctrl Pts',(-1.78712954444581,-0.452550123930128,0.75000001358823));
#457=CARTESIAN_POINT('Ctrl Pts',(-1.78712954444581,-0.452550123172694,1.72160291405082E-8));
#458=CARTESIAN_POINT('Ctrl Pts',(-1.78712954444581,-0.45255012241526,-0.749999979156172));
#459=CARTESIAN_POINT('Ctrl Pts',(-2.53712954081801,-0.452550122574766,-0.749999979156172));
#460=CARTESIAN_POINT('Ctrl Pts',(-2.53712954050235,-1.93678659266518,-7.00000000045626));
#461=CARTESIAN_POINT('Ctrl Pts',(-2.53712954054901,-1.71739867524615,-6.51297020025505));
#462=CARTESIAN_POINT('Ctrl Pts',(-2.53712954058907,-1.52901956081273,-6.01312783126381));
#463=CARTESIAN_POINT('Origin',(-2.53712953719019,-3.99744676423576,2.97877392633603E-25));
#464=CARTESIAN_POINT('Origin',(-2.49006679190067,-3.99744676423576,-6.24982280532863));
#465=UNCERTAINTY_MEASURE_WITH_UNIT(LENGTH_MEASURE(0.01),#469,
'DISTANCE_ACCURACY_VALUE',
'Maximum model space distance between geometric entities at asserted c
onnectivities');
#466=UNCERTAINTY_MEASURE_WITH_UNIT(LENGTH_MEASURE(0.01),#469,
'DISTANCE_ACCURACY_VALUE',
'Maximum model space distance between geometric entities at asserted c
onnectivities');
#467=(
GEOMETRIC_REPRESENTATION_CONTEXT(3)
GLOBAL_UNCERTAINTY_ASSIGNED_CONTEXT((#465))
GLOBAL_UNIT_ASSIGNED_CONTEXT((#469,#471,#472))
REPRESENTATION_CONTEXT('','3D')
);
#468=(
GEOMETRIC_REPRESENTATION_CONTEXT(3)
GLOBAL_UNCERTAINTY_ASSIGNED_CONTEXT((#466))
GLOBAL_UNIT_ASSIGNED_CONTEXT((#469,#471,#472))
REPRESENTATION_CONTEXT('','3D')
);
#469=(
LENGTH_UNIT()
NAMED_UNIT(*)
SI_UNIT(.MILLI.,.METRE.)
);
#470=(
LENGTH_UNIT()
NAMED_UNIT(*)
SI_UNIT(.CENTI.,.METRE.)
);
#471=(
NAMED_UNIT(*)
PLANE_ANGLE_UNIT()
SI_UNIT($,.RADIAN.)
);
#472=(
NAMED_UNIT(*)
SI_UNIT($,.STERADIAN.)
SOLID_ANGLE_UNIT()
);
#473=SHAPE_DEFINITION_REPRESENTATION(#474,#475);
#474=PRODUCT_DEFINITION_SHAPE('',$,#477);
#475=SHAPE_REPRESENTATION('',(#243),#467);
#476=PRODUCT_DEFINITION_CONTEXT('part definition',#481,'design');
#477=PRODUCT_DEFINITION('\X2\0414043504420430043B044C\X0\18',
'\X2\0413041E04240420041E041C041004220418041A\X0\ \X2\04170420\X0\1-\X2\041B0420\X0\-
PG7',#478,#476);
#478=PRODUCT_DEFINITION_FORMATION('',$,#483);
#479=PRODUCT_RELATED_PRODUCT_CATEGORY(
'\X2\0413041E04240420041E041C041004220418041A\X0\ \X2\04170420\X0\1-\X2\041B0420\X0\-
PG7','\X2\0413041E04240420041E041C041004220418041A\X0\ \X2\04170420\X0\1
-\X2\041B0420\X0\-PG7',(#483));
#480=APPLICATION_PROTOCOL_DEFINITION('international standard',
'automotive_design',2009,#481);
#481=APPLICATION_CONTEXT(
'Core Data for Automotive Mechanical Design Process');
#482=PRODUCT_CONTEXT('part definition',#481,'mechanical');
#483=PRODUCT('\X2\0414043504420430043B044C\X0\18',
'\X2\0413041E04240420041E041C041004220418041A\X0\ \X2\04170420\X0\1-\X2\041B0420\X0\-
PG7',$,(#482));
#484=PRESENTATION_STYLE_ASSIGNMENT((#485));
#485=SURFACE_STYLE_USAGE(.BOTH.,#488);
#486=SURFACE_STYLE_RENDERING_WITH_PROPERTIES($,#492,(#487));
#487=SURFACE_STYLE_TRANSPARENT(0.);
#488=SURFACE_SIDE_STYLE('',(#489,#486));
#489=SURFACE_STYLE_FILL_AREA(#490);
#490=FILL_AREA_STYLE('',(#491));
#491=FILL_AREA_STYLE_COLOUR('',#492);
#492=COLOUR_RGB('',0.749019607843137,0.749019607843137,0.749019607843137);
ENDSEC;
END-ISO-10303-21;
